November 19, 2017

Guitar Chords Kabhi Jo Baadal Barse, Jackpot

jackpot

Movie Name:

Lyrics:

,

Artist:

Arijit Singh

Music Director:

Readers Rating:
VN:F [1.9.22_1171]
Rating: 10.0/10 (2 votes cast)

Kabhi Jo Baadal Barse (Chords/Tabs)

Year:2013 -Movie : KEY: [Cm]

Guitar Chords Kabhi Jo Baadal Barse

{slide=CHORDS USED}
[Cm] [Bb] [G#] [Fm]

*SLUR= keep holding first note and hammer second note with one stroke
{/slide}

      Intro on piano    x2       
e|-----------------|-------------------------|---------|- 
B|---3-3h4-3-4-6-3-|---3-3h4-3-4-6-3-----3---|---------|-
G|-5---------------|-5---------------3-5---5-|-3-------|-
D|-----------------|-------------------------|---6-5---|-
A|-----------------|-------------------------|---------|-
E|-----------------|-------------------------|---------|-
                                          														                                                                                                .                                       Guitar                        x3   
e|------------------------------------|-----------------------------------|
B|---4---4-----3-------------3---3--4-|--------3-3SLUR4-------------------|
G|-5---5---5-3---3-5---5---5---3---5--|-3SL5-5----------3-----------------|
D|-------------------6---6------------|-------------------3---------------|
A|------------------------------------|-------------------------1--1-2-3--|
E|------------------------------------|-----------------------3---3-------|

Kabhi jo [Cm]baadal[Bb]barse
Main dekhun tujhe [G#]aankhen bhar [Bb]ke
Tu lage mujhe [G#]pehli ba[Bb]rish ki dua

|| [Fm] [Bb] [G#] |x2

Tere peh[Cm]lu mein reh [Bb]loon
Main khud ko [G#]pagal keh [Bb]loon
Tu gham de ya [G#]khushiyaan
Seh [Bb]loon sathiya..

|| [Fm] [Bb] [G#] |x2

Interlude Part:-
e|---------------------|--------------6-----|-------------------------------|-
B|------3-4-3-4-4SL6-3-|------3-4-3-4---4-3-|-----3-4-3-4-4SL6-3------------|-
G|-3SL5----------------|-3SL5---------------|-3SL5---------------3SL5-3-----|-
D|---------------------|--------------------|---------------------------6-5-|-
A|---------------------|--------------------|-------------------------------|-
E|---------------------|--------------------|-------------------------------|-

Play bass note till “sab yahan” :

[Cm]Koi nahi [Bb]tere siwa [G#]mera yahan [Bb]
Manzilein [Bb]hain meri to [G#]sab yahan [Bb]
Mita de sabhi [Cm]aaja faas [Bb]le
Kabhi jo baadal barse
Main chahoon mujhe [G#]mujhse baant [Bb]le
Zara sa mujh [G#]mein tu jhaank [Bb]le
Main hoon kya || [Fm] [Bb] [G#] |x2

humming… [Cm] [Bb] [G#] [Bb] [G#] [Bb] [Cm]..sathiyaaa x2

Play bass note till “tanha kar diya” :

[Cm]Pahle kabhi [Bb]na tune mujhe[G#]gham diya[Bb]
[Cm]phir mujhe [Bb] kyun tanha [G#]kar diya[Bb]

Guzaare the jo [Cm]lamhe pyaar [Bb]ke
Hamesha tujhe apna maan ke
To phir tune [G#]badli kyun [Bb]ada
Yeh kyun kiya

humming… || [Fm] [Bb] [G#] |x2

Kabhi jo [Cm]baadal[Bb]barse
Main dekhun tujhe [G#]aankhen bhar [Bb]ke
Tu lage mujhe [G#]pehli ba[Bb]rish ki dua

Tere peh[Cm]lu mein reh [Bb]loon
Main khud ko [G#]pagal keh [Bb]loon
Tu gham de ya [G#]khushiyaan
Seh [Bb]loon sathiya..

End with lead part:

e|-8-8H10-10SLUR11-8----------------------------------|-
B|-------------------11-------------------------------|-
G|----------------------10-8-10SLUR12-----------------|-
D|----------------------------------------8----8-9-10-|-
A|-------------------------------------10---10--------|-
E|----------------------------------------------------|-



{tab=video}

{/tabs}

VN:F [1.9.22_1171]
Rating: 10.0/10 (2 votes cast)
VN:F [1.9.22_1171]
Rating: 0 (from 0 votes)
Guitar Chords Kabhi Jo Baadal Barse, Jackpot, 10.0 out of 10 based on 2 ratings
Guitar Chords Kabhi Jo Baadal Barse, Jackpot, 10.0 out of 10 based on 2 ratings