September 26, 2017

Guitar Chords and Tabs: Aadat, Jal

Guitar Chords and Tabs: Aadat, Jal

Album:

Genre:

,

Band:

Readers Rating:
VN:F [1.9.22_1171]
Rating: 8.0/10 (1 vote cast)

Aadat(Chords)

Year: 2004 – Album : Aadat KEY: [Asus]

{slide=CHORDS USED}

[Asus] (032000)
[Dm] (132300)
[Bb] (133300)

{/slide}

The interesting thing is the arpeggio generated with these chords as follows.

[Asus]				  [Asus]
---------0-----0-----0-----0-------------0-----0-----0-----0-----
-----3-----3-----3-----3-----3-------3-----3-----3-----3-----3---
---2---2-----2-----2-----2-----2---2---2-----2-----2-----2-----2-
-0-------------------------------0-------------------------------
-----------------------------------------------------------------
-----------------------------------------------------------------

[Bb]				  [Asus]
---------1-----1-----1-----1-------------0-----0-----0-----0-----
-----3-----3-----3-----3-----3-------3-----3-----3-----3-----3---
---3---3-----3-----3-----3-----3---2---2-----2-----2-----2-----2-
-3-------------------------------0-------------------------------
-----------------------------------------------------------------
-----------------------------------------------------------------

Na Jaane Kab Se… Umeede kuch baki hai…

---------------------------------------------
---6-5--------------8-6-5-5---6-6--6-5-------
-------7--------------------7----------7-----
-7-------7-7------7--------------------------
---------------------------------------------
---------------------------------------------

Mujhe phir bhi teri yaad… kyu aati hai.

---------------------------------------------
---6-5---------------8-6-5-----6-6--6p5------
-------7-------------------7-7----------7----
-7-------7-7--5---7--------------------------
----------------8----------------------------
---------------------------------------------

Na Jaane Kab Se…

-----------------
---6-5-----------
-------7-5-5h7---
-7---------------
-----------------
-----------------

Chord Strumming

| [Asus] [Dm] | [Asus] [Dm] | [Bb] [Bb] | [Bb] [Bb] |

| [Asus] [Dm] | [Asus] [Dm] | [Bb] [Bb] | [Bb] [Bb] |
During the second chord strumming, play this tune.

--------------------------------------------
-------6------------6--------------6--------
-7-5-7---7-5--7-5-7---7-5----8-5-8---7-5-7--
--------------------------------------------
--------------------------------------------
--------------------------------------------

Dur Jitna bhi tum mujhse… paas tere main.

--------------------------------------------
--------------------------------------------
--------------------------------------------
----7-8-7-7-7-5-----------------------------
----------------8-7----------8-7-5-7--------
--------------------------------------------

Ab to aadat si hai mujhko, aise jine mein…

--------------------------------------------
--------------------------------------------
------------5-7-5-5-7/9-7-5-5-3/5-7p5-------
----7-8-7-7---------------------------8-5---
--------------------------------------------
--------------------------------------------

Zindagi se koi shikwa, bhi nahi hai…

--------------------------------------------
--------------------------------------------
--------------------------------------------
----7-8-7-7-7-775----5----------------------
-----------------7-7------8-7-5-7-----------
--------------------------------------------

Ab to zinda hu main is neele aasman me…

--------------------------------------------
--------------------------------------------
-----------5-7-7p5-7h9-7-5-5-3/5-7p5--------
---7-8-7-7---------------------------8-7-5--
--------------------------------------------
--------------------------------------------

Interlude (twice)

-------5-8p5--------5-8p5----------5-----6--
---6------------6---------------8-----------
-7---7--------7---7---------7--------7------
--------------------------8---8--------8----
--------------------------------------------
--------------------------------------------

Reapeat Antra 2 in the same way.
The chords mentioned here are applicable to Antra 1 as well..

Chahat [Asus]aisi hai ye it[Dm]ni, badhti [Bb]jaye…

Aahat [Asus]aisi hai ye it[Dm]ni, mujhko sa[Bb]taye…

yaadien [Asus]gehri hai it[Dm]ni, dil doob [Bb]jaye…

aur [Asus]aaankhon me ye [Dm]gam nam ban [Bb]jaye…

eh hey.. hey ye he hey ye.. o ho o ho wo ho… o ho..

Guitar Piece

-5-6-5-5-5------------------------------------------
-----------8-6-5-5-5--5-6-5---6--6h8-6-5------------
----------------------------7-----------------------
----------------------------------------------------
----------------------------------------------------
----------------------------------------------------

-5-6-5-55-5/8-10-8-10/12-10-------------------------
----------------------------13-13-13-11/13-11-10\8--
----------------------------------------------------
----------------------------------------------------
----------------------------------------------------
----------------------------------------------------

Credit and Source ABHINAVSONKAR




{tab=VIDEO TUTORIAL} {/tabs}

VN:F [1.9.22_1171]
Rating: 8.0/10 (1 vote cast)
VN:F [1.9.22_1171]
Rating: 0 (from 0 votes)
Guitar Chords and Tabs: Aadat, Jal, 8.0 out of 10 based on 1 rating
Guitar Chords and Tabs: Aadat, Jal, 8.0 out of 10 based on 1 rating