September 26, 2017

Guitar Chords/Tabs: Teri Meri Love Stories - Star Plus

Guitar Chords/Tabs: Teri Meri Love Stories – Star Plus

Genre:

Band:

Readers Rating:
VN:F [1.9.22_1171]
Rating: 10.0/10 (3 votes cast)

Teri Meri Love Stories(Chords/Tabs)

Year: 2012 – Album : Teri Meri Love Stories KEY: [G]

{slide=CHORDS USED}

[G] [Bm] [D] [Am] [F] [C]

{/slide}
Intro Tabs:

e||--3-------------3--|         
B||--3-------------3--|
G||--4-4-6-5---2---4--|
D||-5------------5----|
A||-------------------|
E||-------------------|

e||----------------|         
B||----------------|
G||----------------|
D||----------------|
A||----------------|
E||-3-SL-7-P-3-----|

[G]Kahin dabi-dabi si Kahin [Bm]cheepi-cheepi si thi
[G]Teri meri love[D]stories
[G]Kahin dabi-dabi si Kahin [Bm]cheepi-cheepi si thi
[G]Teri meri love [D]stories
Kabhi [Am] baarishon me bheegi
Toh[F]mehak uthi[C]teri meri love[G]stories
Music Part & Tabs [G] [F] [G]

e||-7-h-8-6-sl-7----7---7-h-8-6-sl-7--|         
B||---------------8---8---------------|
G||-----------------------------------|
D||-----------------------------------|
A||-----------------------------------|
E||-----------------------------------|

e||---7--------------------|         
B||-8---8-6-h-8-5-sl-6-----|
G||------------------------|
D||------------------------|
A||------------------------|
E||------------------------|

e||-----10-8-7--7-7-7---|         
B||-6-8---------8-8-8---|
G||---------------------|
D||---------------------|
A||---------------------|
E||---------------------|

Kabhi tum[G]aage chal[Bm]diye Hum [Am]peeche reh[D]gaye
[G]Na na na..Kabhi tum[G]aage chal[Bm]diye Hum[Am]peeche reh[D]gaye
Kadmon[G]ke woh [Bm] nishaan Leha[Am]ron mein beh [D]gaye
Kabhi tum [G]aage chal[Bm]diye Hum[Am]peeche reh[D]gaye
Kadmon[G]ke woh[Bm]nishaan Leha[Am]ron mein beh[D]gaye
Kabhi[G]bigar-bigar bani[Bm]banke bigad gayi
[G]Teri meri love [D]stories
Kabhi [Am] baarishon me bheegi
Toh[F]mehak uthi[C]teri meri love[G]stories
Kabhi tum [G]kehte reh [Bm]gaye Kabhi [Am]hum chup reh [D]gaye
Woh [G]pal woh lamhe bhi [Bm]Yun khaton [Am]mein reh [D]gaye
Kabhi [G]barf si zami [Bm]pani si baras gayi
[G]Teri meri love [D]stories
Kabhi [Am] baarishon me bheegi
Toh[F]mehak uthi[C]teri meri love[G]stories
Music Part [G] [D] [F] [C] [G] / [G] [C] [F] [Am] [G]
Woh [G]pal toh khwaab [Bm]hain Yeh [Am]pal toh aaj[D]hain
Is [G]pal me jeene [Bm]ki kuch [Am] baat hi khaas [D]hai
Woh [G]pal toh khwaab [Bm]hain Yeh [Am]pal toh aaj[D]hain
Is [G]pal me jeene [Bm]ki kuch [Am] baat hi khaas [D]hai
Is [G]pal me chupaake [Bm]rakhle aa hum tum
[G]Teri meri love [D]stories
Kabhi [Am] baarishon me bheegi
Toh[F]mehak uthi[C]teri meri love[G]stories

[G]Teri meri love stories
[G]Teri meri love stories
[G]Teri meri love stories

Chords By Milan & Manish




{tab=VIDEO}

{/tabs}

VN:F [1.9.22_1171]
Rating: 10.0/10 (3 votes cast)
VN:F [1.9.22_1171]
Rating: +1 (from 1 vote)
Guitar Chords/Tabs: Teri Meri Love Stories - Star Plus, 10.0 out of 10 based on 3 ratings
Guitar Chords/Tabs: Teri Meri Love Stories - Star Plus, 10.0 out of 10 based on 3 ratings