September 26, 2017

Guitar Chords Tu Mere Agal Bagal Hai, Phata Poster Nikla Hero

phata poster nikhla hero

Artist:

Mika Singh

Music Director:

Readers Rating:
VN:F [1.9.22_1171]
Rating: 7.5/10 (2 votes cast)

Tu Mere Agal Bagal Hai (Chords)

Year:2013 -Movie : KEY: [A]

Guitar Chords Tu Mere Agal Bagal Hai

{slide=CHORDS USED}
[A] [D] [E] [Bb]
{/slide}

[A] Aaja pyaar ki ho deal..(Deal bole toh… haat haat)
(Ama yaar sauda, sauda) Oho
[D]Dono deal karein seal (Tight tight, very tight)ahee
[A] Aankhon se ho agreement (Oho) [D]Chalein uspe permanent (a ha ha)
Aur [A] hasraton ke [E] court mein, Yeh [D]dil ka judge [E] kahe (order order)

Khali peeli [A] khali peeli rokne ka [E] nai,
[D]Tera peecha karun toh[E] tokne ka [A] nai
Khali peeli [A] khali peeli rokne ka [E] nai,
[D]Tera peecha karun toh[E] tokne ka [A] nai
[A] Hai tujhpe right mera, Tu hai delight mera
Tera rasta [D]jo roku, Chaukne ka [E] nai
Tere do [A] ggy ko mujhpe bhaukne ka [E] nai,
[D]Tera peecha karun toh [E] rokne ka [A] nai
Khali peeli [A] khali peeli rokne ka [E] nai,
[D]Tera peecha karun toh[E] tokne ka [A] nai

Tu mere [A] agal bagal hai, main tere [E] agal bagal hu
Tu mere [A] agal bagal hai, main tere [E] agal bagal hu
Tu mere [A] agal bagal hai, main tere [E] agal bagal hu
Tu mere [A] agal bagal hai, main tere [E] agal bagal hu

Interlude:
                                    x2	               x2
e|-17-17-17--17-14--------------------|--------------------|--------------------|- 
B|-------------------15--------14-----|--15-14-12-14-------|--------------------|-
G|----------------------16-16-----14--|-----------------14-|-----11-13-11-13-14-|-
D|------------------------------------|--------------------|-14-----------------|-
A|------------------------------------|--------------------|--------------------|-
E|------------------------------------|--------------------|--------------------|-

*Play Part 1 after above tabs, and then repeat the above tabs and play part 2 below:


Part 1:
e|------------------|        
B|-15-14-12-14------|        
G|---------------14-|        
D|------------------|        
A|------------------|       
E|------------------|        

Part 2:
--------------------------|-
---------------12---------|-
-----11-13-14-----13-14---|-
-14-----------------------|-
--------------------------|-
--------------------------|-

Haaye, [A] fokatiyon sa pyaar karunga, [D]Baaton se hi pet [A]bharunga
Miss call pe phone tu karna, [D]Mar jaunga pyaar mein [A]warna { [Bb]x2 [A] x2}
Ho, [A] fokatiyon sa pyaar karunga, [D]Baaton se hi pet [A]bharunga
Miss call pe phone tu karna, [D]Mar jaunga pyaar mein [A]warna { [Bb]x2 [A] x2}
Mahi[D]waal ka [A] mama Far[D]had ka phoo[A]fa,
[D]Majnu se kam tu sochne ka[E] nai,
Saccha [A] aashiq hu mujhe thokne ka [E] nai

Tere [D]doggy ka mujhpe [E] bhaukne ka [A]nai
Khali peeli [A] khali peeli rokne ka [E] nai,
[D]Tera peecha karun toh[E] tokne ka [A] nai

Tu mere [A] agal bagal hai, main tere [E] agal bagal hu
Tu mere [A] agal bagal hai, main tere [E] agal bagal hu

[A] ghar se nikalne ka time to bata [D],Ta ki rahun main mod pe [A] khada
Rehta hun main aaj kal busy [D], Wait karna hai mushkil [A] bada
Main [D] road rom[A]eo dil [D] jod rom[A]eo,
[D] Raste mein mujhko chodne ka [E] nai
Chahe dil [A]tod, sir phodne ka [E]nai,
Tere [D]doggy ka mujhpe [E] bhaukne ka [A]nai
Khali peeli [A] khali peeli rokne ka [E] nai,
[D]Tera peecha karun toh[E] tokne ka [A] nai
Tu mere [A] agal bagal hai, main tere [E] agal bagal hu
Tu mere [A] agal bagal hai, main tere [E] agal bagal hu
Tu mere [A] agal bagal hai, main tere [E] agal bagal hu
Tu mere [A] agal bagal hai, main tere [E] agal bagal hu




{tab=video}

{/tabs}

VN:F [1.9.22_1171]
Rating: 7.5/10 (2 votes cast)
VN:F [1.9.22_1171]
Rating: 0 (from 0 votes)
Guitar Chords Tu Mere Agal Bagal Hai, Phata Poster Nikla Hero, 7.5 out of 10 based on 2 ratings
Guitar Chords Tu Mere Agal Bagal Hai, Phata Poster Nikla Hero, 7.5 out of 10 based on 2 ratings