July 22, 2017

Guitar Chords: Challa Ki Labda, Jab Tak Hai Jaan

Guitar Chords: Challa Ki Labda, Jab Tak Hai Jaan

Movie Name:

Lyrics:

Artist:

Rabbi

Music Director:

Readers Rating:
VN:F [1.9.22_1171]
Rating: 10.0/10 (2 votes cast)

Challa Ki Labda(Chords)

Year:2012 -Movie : KEY: [Dm]

{slide=CHORDS USED}

[Dm] [F] [Am] [G] [E] [C] [Cm]
{/slide}

[Dm]X4 [Am] [Dm] [G] [E]

Intro with tabs

e||---------------------------------------------------------------|         
B||---------------------------------------------------------------|
G||----------3-sl-5-----------3-sl-5------------------4-----------|
D||--------5--------7-7-7-5-7---------7-7-7--3-sl-5-7---5-3-5-3-2-|
A||-5-sl-7--------------------------------------------------------|
E||---------------------------------------------------------------|


e||--------------------------------------------------------------|         
B||--------------------------------------------------------------|
G||-------3-sl-5-----------h5-----------------4------------------|
D||---5-7--------7-7-7-5-7----7-7-7--3-sl-5-7---5-3-5-3-2--------|
A||-7------------------------------------------------------------|
E||--------------------------------------------------------------|


[Dm]Challa ki labda [F]phire [C] [G]
Challa ki labda [Am]phire
[F]Yaaron oda gar [C]keda
[G]Lokan toh puchda ([Dm] OR [Am]) phire

Challa [Am]hansda phire
Challa [F]ronda phire
Challa [G]gali gali rulda [C]phire
Challe [Am]tu sab da
Challe [F]tera koi nahi
[G]Challa gali gali rul da [E]phire

[Dm]Challa ki labda [F]phire [C] [E]
Challa ki labda [Am]phire
[F]Yaaron oda gar [C]kehda
[G]Lokan toh puch da [Dm]phire

[F]Challa ki [C]labda [E]phire

e||-----------------------0-----------------------------------------------|         
B||-----------------0-1-3---2-sl-5-6-2-sl-5-5-6-3-sl-5-p-5-3-1-h-3--------|
G||-------------0-2------------------------------------------------2-sl-4-|
D||-------0-2-3-----------------------------------------------------------|
A||-0-2-3-----------------------------------------------------------------|
E||-----------------------------------------------------------------------|


e||------------------]-----------------------|-5-sl-7-7-5-3-1-sl-3-3-1--|      
B||-----1---1-3-sl-5-]-x2------------3-5---3-|-6-sl-8-8-6-5-3-sl-5-5-3--|
G||-h-2---2----------]-----------2-5-----5---|--------------------------|
D||-----------------------3-sl-5-------------|--------------------------|
A||------------------------------------------|--------------------------|
E||------------------------------------------|--------------------------|

e||--7-8--7-8-10-sl-12-8-12-slur-8----12-slur-8-----12-slur-8----12-8-sl-10-|         
B||--8-----------------------------10-----------10------------10------------|
G||--7----------------------------------------------------------------------|
D||-------------------------------------------------------------------------|
A||-------------------------------------------------------------------------|
E||-------------------------------------------------------------------------|

Rang sat[Am]rangi de[F]
Bulbulan [C]di boli[G]
Dhup de [Dm]paireen [F]chale
Chavaan di [Cm]le doli[E]

Rang sat[Am]rangi-rangi de[F]
Bulbulan [C]di-di boli[G]
Dhup de [Dm]paireen [F]chale
Chavaan di [Cm]le-le doli[E]

Oye [Am]kale kaale badalan Cha [F]chand labda
[G]Goongiyan hawavan diyan [C]vajan sun da
[Am]Yaaro aase paase vasda [F]ay yaar mera
[G]vikhda naie oudi khushboovaan [E]sunghdaa

oooooo[Am]Challa ki labda [C]phire [F] …..[C]
[Am]Challa ki labda [C]phire
[F]Yaaron oda gar [C]kehda
[G]Lokan toh puchda [C]phire
[Am]Challa ki [G]labda [C]phire

Na visaal [Am]hoya [F]kadi,na juda[C]ai [G]hoi
ishq de[Dm]qaidi[F]d,i na reha[Cm]ai[E] hoi
loko [Am]sufne cha milne da [F]vaad usda [G]saari saari raat na akh [C]lagdi,
Mere [Am]saa vi hode thode [F]ghat aavende , meri [G]nabz vi thodi ghatt [E]vajdi

oooooo[Am]Challa ki labda [C]phire [F] …..[C]
[Am]Challa ki labda [C]phire
[F]Yaaron oda gar [C]kehda
[G]Lokan toh puchda [C]phire

Challa [Am]hansda phire
Challa [F]ronda phire
Challa [G]gali gali rulda [C]phire
Challe [Am]tu sab da
Challe [F]tera koi nahi
[G]Challa gali gali rul da [E]phire

Chords By Milan & Manish




{tab=VIDEO}

{/tabs}

VN:F [1.9.22_1171]
Rating: 10.0/10 (2 votes cast)
VN:F [1.9.22_1171]
Rating: 0 (from 0 votes)
Guitar Chords: Challa Ki Labda, Jab Tak Hai Jaan, 10.0 out of 10 based on 2 ratings
Guitar Chords: Challa Ki Labda, Jab Tak Hai Jaan, 10.0 out of 10 based on 2 ratings