July 22, 2017

Guitar Chords Dagabaaz Re, Dabangg 2

dabang

Movie Name:

Lyrics:

Music Director:

Readers Rating:
VN:F [1.9.22_1171]
Rating: 6.5/10 (4 votes cast)

Dagabaaz Re (Chords)

Year:2012 -Movie : KEY: [G]

Guitar Chords Dagabaaz Re

{slide=CHORDS USED}

[G][Am] [C] [D] [A]
{/slide}

{slide=Tabs for the song here}

Starting:

e||-----7-5-5-7-----7-5-5-7-----7-5-5-7--------------|         
B||-8-8---------8-8---------8-8---------8-8-7-5-5-7--|
G||--------------------------------------------------|
D||--------------------------------------------------|
A||--------------------------------------------------|
E||--------------------------------------------------|

Interlude:

e||-10-----------------|-----------------------|------------------------|         
B||----7-8----7--[8]x7-|-7-8---7-8-sl-13-12-10-|-7-8---7-8-sl-12-[8]x3--|
G||---------9----------|-----9-----------------|-----9------------------|
D||--------------------|-----------------------|------------------------|
A||--------------------|-----------------------|------------------------|
E||--------------------|-----------------------|------------------------|

e||-----------8-7-10-8-7----|-[9]x4--(9-10)x4-|----------12-10---------|         
B||-7-8---7-8------------10-|-----------------|-10-12-13-------13-h-12-|
G||-----9-------------------|-----------------|------------------------|
D||-------------------------|-----------------|------------------------|
A||-------------------------|-----------------|------------------------|
E||-------------------------|-----------------|------------------------|

Middle Tabs:

e||-(14-15-)x6----------15-14-12----------------|         
B||------------12-14-15----------14-15-12-13-12-|
G||---------------------------------------------|
D||---------------------------------------------|
A||---------------------------------------------|
E||---------------------------------------------|

{/slide}

Daga[G]baaz re [Em] haaye daga[G]baaz re,
Tore [C]naina [D]bade daga[G]baaz re
[G]Dere na dere na dere..dere na na x2
Ho tore naina haaye, Naina naina naina [D]haaye

|————–(Starting Tabs)

Daga[G]baaz re [Em]haaye daga[G]baaz re
Tore [C]naina [D]bade daga[G]baaz re
Kal [Em]mile haan kal [C]mile [G]haaye
Kal mile ke [A]humka bhool gaye [D]aaj re [G]Haaye
Daga[G]baaz re [Em] haaye daga[G]baaz re,
Tore [C]naina [D]bade daga[G]baaz re
Daga[G]baaz Daga[Em]baaz Daga[G]baaz re
Tore [C]naina [D]bade daga[G]baaz re

|————–(Interlude Tabs)

[D]Kaahe kh [G]afa aise [D]Chulbul se [G]Bulbul
[Em]Kaahe na tu [G]maane ba[C]tiya [G]haaye

|————–(Middle Tabs)

[D]Kaahe kh[G]afa aise [D]Chulbul se [G]Bulbul
[Em]Kaahe na tu [G]maane ba[C]tiya [G]haaye
[D]Kaahe [C] pada peechhe[D]jaane de [G]bairi
[Em] Main jaanu kya [G]tori[C] khatiya [G]haaye
Zindagi apni hum toka[Em] daan deyi [G]de
Muskura ke jo maange [D]praan deyi [G]de
Kal [Em]mile haan kal [C]mile [G]haaye
Kal mile ye [A]humka bhool gaye [D]aaj re [G]Haaye
Daga[G]baaz re [Em] haaye daga[G]baaz re,
Tore [C]naina [D]bade daga[G]baaz re
[G]Dere na dere na dere..dere na na x2
[G]Tohre naina daga daga daga dagabaaz re
Hai dagabaaz [C]re, naina [G]re

[D]Darta jahaan humse, [Em] hum tose darte
Ee [G]sab jaane mori [C]Raniya ha[G]aye
[D]Darta jahaan humse, [Em] hum tose darte
Ee [G]sab jaane mori [C]Raniya ha[G]aye
[D]Maska lagaao naa [Em]chhodo ji chhodo
[G]Samjhti hai tori [C]thaniya ha[G]aye
Iss ada pe toh hum kur[Em]baan gaye [G]jee
Tohri naa naa mein haami hai, [D]jaan gaye[G] jee
Kal [Em]mile haan kal [C]mile [G]haaye
Kal mile ye [A]humka bhool gaye [D]aaj re [G]Haaye
Daga[G]baaz re [Em] haaye daga[G]baaz re,
Tore [C]naina [D]bade daga[G]baaz re
[G]Tohre naina daga daga daga dagabaaz re
Hai dagabaaz [C]re, naina [G]re

Chords By Milan & Manish




{tab=VIDEO}

{/tabs}

VN:F [1.9.22_1171]
Rating: 6.5/10 (4 votes cast)
VN:F [1.9.22_1171]
Rating: 0 (from 0 votes)
Guitar Chords Dagabaaz Re, Dabangg 2, 6.5 out of 10 based on 4 ratings
Guitar Chords Dagabaaz Re, Dabangg 2, 6.5 out of 10 based on 4 ratings