September 26, 2017

Guitar Chords Mora Rangdar Saiyan, Jigariyaa

Mora Rangdar Saiyan guitar chords

Movie Name:

Lyrics:

Music Director:

,

Readers Rating:
VN:F [1.9.22_1171]
Rating: 4.0/10 (1 vote cast)

Mora Rangdar Saiyan (Chords)

Year:2014 -Movie : KEY: [E]

Guitar Chords Mora Rangdar Saiyan, Jigariyaa

{slide=CHORDS USED}
[E][F#m][Amaj7][E] [G#m]
{/slide}

e|---12---12------| X2
B|---12---12------|
G|---13---13------|
D|----------------|
A|----------------|
E|----------------|


                                        X2
e|------------------------|--------------------|-----------7-7-5-5--4---4-5-4--------| 
B|-4-5-7-5-4-5-5----------|-4-5-7-5-4-(5x5)----|-4-5-7-5-4------------7-------7-5-7--|
G|---------------4-4-4----|--------------------|-------------------------------------|
D|------------------------|--------------------|-14----------------------------------|
A|------------------------|--------------------|-------------------------------------|
E|------------------------|--------------------|-------------------------------------|

[E]Haaye mora rangdaar saiyyaan
Mora dildaar saiyyaan
Mora pehla pyaar saiyaan
Tu hai.. haan tu hai
Tora leke haath saiyaan
Aayi iss paar saiyaan
Jahaan tuhi tu hai saiyyan tu hai
Haan tu hai

Oo..[F#m] saiyaan [A]humri bhi hogi ik duni[E]ya
[F#m] saiyaan [A]humri bhi hogi ik duni[E] ya
[C#m]Chaahe kuch bhi Ho jaaye [G#m]jaayegi ye paar naiyya

[E]Hoye poora hua sapna humra
Chhota saa ghar ab humra
Aur more saath saiyaan tu hai, haan tu hai

Interlude:

e|-0-2-4-2-4-(5x5)-4-h-5--4-h-5-2-h-4-0-(2x3)----|-0-2-4-2-4-(5x5)-4h5-4h5-2h4-0h2-(0x3)--| 
B|------------------------|--------------------|------------------------------------------|

                                                  X3                  
e|--10-9-9-9-7-9-7-79-(7x5)-|-10-9-9-9-7-9-7-7-9--7-7-----------|
B|--------------------------|--------------------|----10-9-7----|
G|--------------------------|--------------------|--------------|

e|-0-2-4-2-4-(5x5)-4-h-5--4-h-5-2-h-4-0-(2x3)----|-0-2-4-2-4-(5x5)-4h5-4h5-2h4-0h2-(0x3)--| 
B|------------------------|--------------------|------------------------------------------|

[E]Rahegi na doori koi, honge saath saath re
Pyaar ki ye chaadar piya odhe saari raat re
Piyaa… re (tananum tananum..) piyaa re..

[E]Haaye rahegi na doori koi honge saath saath re
Pyaar ki ye chaadar piya odhe saari raat re
Oo..[Amaj7] baahon me leke tohe [F#m]sab se [E]chhupaaunga
[Amaj7]Jaisa tune socha hai [F#m]jahaan woh [E] banaaunga
[C#m]Chaahe kuch bhi ho jaaye
[G#m]Chhodunaga naa tori baiyyaan
[E]Mora rangddar saiyyaan
Mora dildaar saiyyaan
Mora pehla pyaar saiyyaan
Tu hai.. haan tu hai..
Haaye.. [Amaj7]bheegi bheegi [E]saansein mori
[A]Piya tohre[E] pyaar mein
[Amaj7]Naino se[E] chhu le mohe [A]jiya beqara[E]r ve
Jiyaa…
Oo.. jiyaa beqaraar ([Amaj7] [E] [A] [E])—background chords
[Amaj7]Bheegi bheegi [E]saansein mori
[A]Piya tohre [E]pyaar mein
[Amaj7]Naino se[E] chhu le mohe [A]jiya beqara[E]ar ve

[Amaj7]Pyaar ki mehndi tohe [F#m]sajni [E]lagaunga
[Amaj7]Preet ka kangna tohe [F#m]haan main [E]pehnaunga
[C#m]Chaahe kuch bhi ho jaaye
[G#m]Rahunga main tohra saiyaan

[E]Poora hua sapna humra
Chhota saa ghar ab humra
Aur more saath saiyaan
Tu hai.. (tu hai..)
Haan tu hai (tu hai..)
Haan mora rangddar saiyyaan
Mora dildaar saiyyaan
Mora pehla pyaar saiyyaan
Tu hai.. (tu hai..)
Haan tu hai (tu hai..)
Tora leke haath saiyaan
Aayi iss paar saiyaan
Jahaan tuhi tu hai saiyyan
Tu hai (tu hai..)
Haan tu hai..
Haan tu hai..
Haan tu hai..




{tab=video}

{/tabs}

VN:F [1.9.22_1171]
Rating: 4.0/10 (1 vote cast)
VN:F [1.9.22_1171]
Rating: 0 (from 0 votes)
Guitar Chords Mora Rangdar Saiyan, Jigariyaa, 4.0 out of 10 based on 1 rating
Guitar Chords Mora Rangdar Saiyan, Jigariyaa, 4.0 out of 10 based on 1 rating