July 26, 2017

Guitar Chords: Aashayein, Iqbal

Guitar Chords: Aashayein, Iqbal

Movie Name:

Lyrics:

Artist:

K.K., Salim-Merchant

Music Director:

Readers Rating:
VN:F [1.9.22_1171]
Rating: 1.0/10 (1 vote cast)

Aashayein (Chords)

Year: 2005 – Movie : Iqbal KEY: [A]

{slide=CHORDS USED}

Chord chart
[Asus2] X02200
[Asus2]/[F#] XX4200
[Dsus2] XX0230
[Bmadd11] X24430
[C#m] X46650
[Dsus2]* x57700
[E]* x79900
[F#m] 244222
[A]/[C#] X42220
[Dm]/[F] XX3231
[D]/[F#] XX4232
[A]/[E] 002220 or XX2220
[Asus2]/[B] X22200

{/slide}

The Following is the intro plus verse riff

E----0---00-0--0---00-0-0----0---00-0--0---00-0-0----------------------
B----0---00-0--0---00-0-0----0---00-0--0---00-0-0----------------------
G----6---66-6--6---66-6-6----6---66-6--6---66-6-6----------------------
D----7---77-7--6---66-6-6----4---44-4--6---66-6-6----------------------
A----0---00-0--x---xx-x-x----x---xx-x--x---xx-x-X----------------------
E----x---xx-x--x---xx-x-x----x---xx-x--x---xx-x-X----------------------
     D   UD U  D   UD U D    D   UD U  D   UD U D
     [Asus2]        [Asus2]/[G#]     [Asus2]/[F#]    [Asus2]/[G#] 

E--2---2-2-2---2---2-2-2-2-2--2----------------------
B--2---2-2-2---2---2-2-2-2-2--2----------------------
G--2---2-2-2---2---2-2-2-2-2--2----------------------
D--0---0-0-0---0---0-0-0-0-0--0---------------------
A--x---x-x-x---x---x-x-x-x-x--x----------------------
E--x---x-x-x---x---x-x-x-x-x--x---------------------
   D   U D U   D   U D U D U  D

The above intro is played for the following lines…
Kuch Paane Ki Ho Aas Aas, Koi Armaan Ho Jo Khaas Khaas
Aashaayein , Aashaayein , Aashaayein…
Har Koshish Mein Ho Vaar Vaar, Kare Dariyaon Ko Aar Paar
Aashaayein, Aashaayein, Aashaayein…
Toofa[Bmadd11]non Ko Cheer [C#m]*Ke, Manzi[Dsus2]*lon Ko Chheen [E]*Le
Aashaa[A]yein Khilein Dil [D]Ki , Ummee[D]dein Hansein Dil [D]Ki
Ab Mush[F#m]kil Nahin Kuch [E]Bhi , Nahin Kuch [Asus2]Bhi x 2
[Asus2]ho ho..ooo ho… oho
[Asus2]ho ho..ooo ho… oho
Dm |A/C#|Dm/F|A/C#|Asus2 oh oh oh…
udd jaa([D]/[F#])yein leke khu([A]/[E])shi, apne [Dsus2]sang tujhko wa([Asus2]/[B])han
jannat ([D]/[F#])se mulaqat ([A]/[E])ho , poori [Dsus2]ho teri har ([Asus2]/[B])dua
Aashaa[A]yein Khilein Dil [D]Ki , Ummee[D]dein Hansein Dil [D]Ki
Ab Mush[F#m]kil Nahin Kuch [E]Bhi , Nahin Kuch [Asus2]Bhi
Play the intro riff again…
Guzre Aisi Har Raat Raat, Ho Khwayishon Se Baat Baat
Aashayein, Aashayein, Aashayein…
Lekar Suraj Se Aag Aag, Gaaye Jaa Apna Raag Raag
Aashayein, Aashayein, Aashayein…
kuchh aisa kar ke dikha , khud khush ho jaye khuda
Aashaa[A]yein Khilein Dil [D]Ki , Ummee[D]dein Hansein Dil [D]Ki
Ab Mush[F#m]kil Nahin Kuch [E]Bhi , Nahin Kuch [Asus2]Bhi
[Asus2]ho ho..ooo ho… oho
[Asus2]ho ho..ooo ho… oho

Credit and Source ABHINAVSONKAR




{tab=VIDEO TUTORIAL} {/tabs}

VN:F [1.9.22_1171]
Rating: 1.0/10 (1 vote cast)
VN:F [1.9.22_1171]
Rating: 0 (from 0 votes)
Guitar Chords: Aashayein, Iqbal, 1.0 out of 10 based on 1 rating
Guitar Chords: Aashayein, Iqbal, 1.0 out of 10 based on 1 rating